Editor's Note: We are trying something new and would love your feedback. Let us know what you think Scott A. Shuford, Producer, The Music Channel.

"Adonai"
by the O.C. {{Supertones}}
From the album "Adventures of the O.C. Supertones
(c) Supertones and Tooth and Nail Records
tabbed by Eric Benedict
------
B------
G------
D------7---5----7--8---10---7-7--7-7-7----------------
A------7---5----7--8---10---7-7--7-7-7----------------
E------5---3----5--6---8----5-5--5-5-5---------------- <---listen for the timing

Verse
Mute the down stroke but play the upstroke
e|-----------------------------------------------|
B|-----------------------------------------------|
G|-11--11-11-11-11--11-11-11--9------------------|
D|-11--11-11-11-11--11-11-11--9------------------|
A|--9--9---9--9--9---9--9--9--7------------------|
E|-----------------------------------------------|

This version should sound right.

keep on skankin
Eric Benedict
Bigfil@juno.com